ZZ Top | Gimme all your lovin

Paroles
Version texte.
Vu 1661 fois
  • Currently 2.00/5

66. Note: 2.0/5 (60 votes ) Ouvrir la tab pour noter.

Tablature batterie
Version texte.
Vu 2195 fois
  • Currently 2.05/5

107. Note: 2.1/5 (59 votes ) Ouvrir la tab pour noter.

Tablature guitare
Version texte.
Vu 1884 fois
  • Currently 2.18/5

108. Note: 2.2/5 (57 votes ) Ouvrir la tab pour noter.

›› Tablature guitare basse
Version texte.
Vu 1486 fois
V Partition plus bas V


Tablature guitare basse / par :Seb

106 Note: 1.9/5 (55 votes )

Partager cette partition Share |
Vidéos correspondantes
Loading...
Intro
G|---0---|
D|-2-----|
A|-----3-|
E|-------|
http://www.ks-musique.com/ZZ-Top-Gimme-all-your-lovin-Tablature-guitare-basse-c58-p106.html
Riff1
|------------------------------------------------------------|
|------------------------------------------------------------|
|-3-3-3-3-3-3-3-3-3-3-3-3-3-3-3-3-3-3-3-3-3-3-3-3-3-3-3-3-3--|
|------------------------------------------------------------|

Refrain
|-----------------------------------------------------------------|
|-----------------------------------------------------------------|
|-3-3-3-3-3-3-3-3-3-3-3-3-3-3-3-3-1-1-1-1-1-1-1-1-----------------|
|-------------------------------------------------1-1-1-1-1-1-1-1-|

Solo
|-----------------------------------------------------------------|
|-----------------------------------------------------------------|
|-3-3-3-3-3-3-3-3-3-3-3-3-3-3-3-3-3-3-3-3-3-3-3-3-3-3-3-3-3-3-3-3-|
|-----------------------------------------------------------------|

||-----------------------------------------------------------------||
||-----------------------------------------------------------------||
||-3-3-3-3-3-3-3-3-3-3-3-3-3-3-3-3---------------------------------||
||---------------------------------1-1-1-1-1-1-1-1-3-3-3-3-3-3-3-3-||

Signaler un abus

Contacter l'auteur de cette partition

Pour contacter l'auteur de cette partition, vous devez être connecté.

Ajouter une partition(txt/pdf) "Gimme all your lovin"

Categorie:
Nom de la partition: (facultatif)
Saisir en format texte:


OU...
... télécharger un fichier:
(prioritaire si selectionné)
Votre e-mail
Mot de passe *
Recopiez le code:
Sécurité
Changer l'image
(* saisir votre mot de passe pour vous connecter, si vous n'avez pas de compte, il sera créé automatiquement).