Kavinsky | Nightcall

›› Tablature guitare
Version texte.
Vu 1244 fois
V Partition plus bas V

Tablature guitare basse
Version texte.
Vu 4516 fois
  • Currently 1.82/5

215. Note: 1.8/5 (56 votes ) Ouvrir la tab pour noter.


Tablature guitare / par :Klein Seb

214 Note: 2.1/5 (52 votes )

Partager cette partition Share |
VERSE
e|------8------8------|
B|---10-----10-----10-|
G|-9------9------9----| 
D|--------------------|
A|--------------------|
E|--------------------|
http://www.ks-musique.com/Kavinsky-Nightcall-Tablature-guitare-c132-p214.html
e|-----7-----7-----|
B|---8-----8-----8-|
G|-7-----7-----7---|
D|-----------------|
A|-----------------|
E|-----------------|

e|-----5-----5-----|
B|---6-----6-----6-|
G|-5-----5-----5---|
D|-----------------|
A|-----------------|
E|-----------------|

e|-----5-----5-----|
B|---6-----6-----6-|
G|-7-----7-----7---|
D|-----------------|
A|-----------------|
E|-----------------|

CHORUS
e|-------8-------8-------|
B|----10------10------10-|
G|-10------10------10----|
D|-----------------------|
A|-----------------------|
E|-----------------------|

e|-------10-------10-------|
B|----12-------12-------12-|
G|-12-------12-------12----|
D|-------------------------|
A|-------------------------|
E|-------------------------|

e|-----7-----7-----------|
B|---8-----8-----8-------|
G|-9-----9-----9---------|
D|-----------------------|
A|-----------------------|
E|-----------------------|

e|-------8-------8-------|
B|----10------10------10-|
G|-10------10------10----|
D|-----------------------|
A|-----------------------|
E|-----------------------|

Signaler un abus

Contacter l'auteur de cette partition

Pour contacter l'auteur de cette partition, vous devez être connecté.

Ajouter une partition(txt/pdf) "Nightcall"

Categorie:
Nom de la partition: (facultatif)
Saisir en format texte:


OU...
... télécharger un fichier:
(prioritaire si selectionné)
Votre e-mail
Mot de passe *
Recopiez le code:
Sécurité
Changer l'image
(* saisir votre mot de passe pour vous connecter, si vous n'avez pas de compte, il sera créé automatiquement).