Kavinsky | Nightcall

Tablature guitare
Version texte.
Vu 1244 fois
  • Currently 2.06/5

214. Note: 2.1/5 (52 votes ) Ouvrir la tab pour noter.

›› Tablature guitare basse
Version texte.
Vu 4517 fois
V Partition plus bas V


Tablature guitare basse / par :Klein Seb

215 Note: 1.8/5 (56 votes )

Partager cette partition Share |
Tab for 5 strings bass tuned BEADG
http://www.ks-musique.com/Kavinsky-Nightcall-Tablature-guitare-basse-c132-p215.html
VERSE
G|------------------------------------------|
D|------------------------------------------|
A|-0---0-2---2------------------------------|
E|-------------1---1------------------------|
B|-------------------2---2------------------|

CHORUS
G|------------------------------------------|
D|------------------------------------------|
A|------------------------------------------|
E|-1---1-3---3-0---0-1----------------------|
B|------------------------------------------|

Signaler un abus

Contacter l'auteur de cette partition

Pour contacter l'auteur de cette partition, vous devez être connecté.

Ajouter une partition(txt/pdf) "Nightcall"

Categorie:
Nom de la partition: (facultatif)
Saisir en format texte:


OU...
... télécharger un fichier:
(prioritaire si selectionné)
Votre e-mail
Mot de passe *
Recopiez le code:
Sécurité
Changer l'image
(* saisir votre mot de passe pour vous connecter, si vous n'avez pas de compte, il sera créé automatiquement).