Un maximum de points cadeaux en 3 étapes

1 Choisissez >> 2 Enregistrez votre partition >> 3 Partagez

Accédez au formulaire

Sélectionnez la chanson concernée par votre partition dans la liste des chansons ou créez la sur la page qui donne la liste des chansons par artiste / groupe (liste des artistes). Si l'artiste ou le groupe n'a pas encore été créé, vous pouvez le faire ici. Attention, tout doublon sera supprimé...

Texte ou PDF ?

Vous pouvez poster votre partition dans un fichier (pdf ou txt) ou encore la saisir directement dans la zone de texte du formulaire.

Astuce Si vous optez pour le texte, vous pourrez modifier et améliorer votre partition à volonté...

Quelques conseils

Affichage

Pour être convenablement affichée, votre partition "texte" doit respecter une longueur de lignes raisonable (90 caractères max). Sinon, le retour à la ligne risque de dénaturer l'apparence de votre partition.

Longueur correcte
Pendant le solo guitare
|-----------------------------------------------------------------|
|-----------------------------------------------------------------|
|-3-3-3-3-3-3-3-3-3-3-3-3-3-3-3-3-3-3-3-3-3-3-3-3-3-3-3-3-3-3-3-3-|
|-----------------------------------------------------------------|

||-----------------------------------------------------------------||
||-----------------------------------------------------------------||
||-3-3-3-3-3-3-3-3-3-3-3-3-3-3-3-3---------------------------------||
||---------------------------------1-1-1-1-1-1-1-1-3-3-3-3-3-3-3-3-||


											
Lignes trop longues
Pendant le solo guitare
|-----------------------------------------------------------------||----------------
-------------------------------------------------||
|-----------------------------------------------------------------||----------------
-------------------------------------------------||
|-3-3-3-3-3-3-3-3-3-3-3-3-3-3-3-3-3-3-3-3-3-3-3-3-3-3-3-3-3-3-3-3-||-3-3-3-3-3-3-3-3-
3-3-3-3-3-3-3-3---------------------------------||
|-----------------------------------------------------------------||-----------------
----------------1-1-1-1-1-1-1-1-3-3-3-3-3-3-3-3-||
											

Partenariat

Pour des questions techniques, votre partition ne doit pas contenir d'adresse d'autres sites. Les partenariats sont possibles et gratuits sur simple demande par le formulaire de contact.

.

Boutique cadeaux